One octave F Sharp Major Scale


E|-------------1-2-1-------------|
B|---------2-4-------4-2---------|
G|---1-3-4---------------4-3-1---|
D|-4---------------------------4-|
A|-------------------------------|
E|-------------------------------|

Click below to activate player and click again to play



The notes are F# G# A# B C# D# E# and F#



This scale can also be G Flat on a guitar. In which case the notes are: Gb Ab Bb Cb Db Eb F and Gb


Some other positions for a 1-octave F Sharp or G Flat Major Scale:


E|-------------------------------|
B|-----------4-6-7-6-4-----------|
G|-----3-4-6-----------6-4-3-----|
D|-4-6-----------------------6-4-|
A|-------------------------------|
E|-------------------------------|


E|-------------------------------|
B|-------------------------------|
G|-------------------------------|
D|-----------1-3-4-3-1-----------|
A|-----1-2-4-----------4-2-1-----|
E|-2-4-----------------------4-2-|


E|--------------------------------------|
B|--------------------------------------|
G|-------------8-10-11-10-8-------------|
D|------8-9-11--------------11-9-8------|
A|-9-11----------------------------11-9-|
E|--------------------------------------|


E|-------------------------------|
B|-------------6-7-6-------------|
G|---------6-8-------8-6---------|
D|---6-8-9---------------9-8-6---|
A|-9---------------------------9-|
E|-------------------------------|