One octave C Sharp Major Scale


E|-------------------------------|
B|-------------1-2-1-------------|
G|---------1-3-------3-1---------|
D|---1-3-4---------------4-3-1---|
A|-4---------------------------4-|
E|-------------------------------|

Click below to activate player and click again to play



The notes are C# D# E# F# G# A# B# and C#


Please note that on a guitar this scale could also be Db Major. In this case, the notes are: Db , Eb, F, Gb, Ab, Bb, C and Db.

Some other positions for a 1-octave C# Major scale:

E|-------------------------------------|
B|-------------------------------------|
G|-------------------------------------|
D|-------------8-10-11-10-8------------|
A|------8-9-11--------------11-9-8-----|
E|-9-11---------------------------11-9-|

E|-------------------------------|
B|-------------------------------|
G|-------------5-6-5-------------|
D|---------6-8-------8-6---------|
A|---6-8-9---------------9-8-6---|
E|-9---------------------------9-|

E|-------------------------------|
B|-------------------------------|
G|-----------3-5-6-5-3-----------|
D|-----3-4-6-----------6-4-3-----|
A|-4-6-----------------------6-4-|
E|-------------------------------|

E|----------------------------------------------|
B|----------------11-13-14-13-11----------------|
G|-------10-11-13----------------13-11-10-------|
D|-11-13----------------------------------13-11-|
A|----------------------------------------------|
E|----------------------------------------------|